  0
SECTION
  2
HEADER
  9
$ACADVER
  1
AC1009
  9
$INSBASE
 10
89.64077282927776
 20
-668.8844039972052
 30
0.0
  9
$EXTMIN
 10
88.81234570453953
 20
-669.7128311219521
 30
0.0
  9
$EXTMAX
 10
2258.862909232258
 20
1102.359296413168
 30
0.0
  9
$LIMMIN
 10
0.0
 20
0.0
  9
$LIMMAX
 10
420.0
 20
297.0
  9
$ORTHOMODE
 70
     1
  9
$REGENMODE
 70
     1
  9
$FILLMODE
 70
     1
  9
$QTEXTMODE
 70
     0
  9
$MIRRTEXT
 70
     0
  9
$DRAGMODE
 70
     2
  9
$LTSCALE
 40
1.0
  9
$OSMODE
 70
     0
  9
$ATTMODE
 70
     1
  9
$TEXTSIZE
 40
3.5
  9
$TRACEWID
 40
0.05
  9
$TEXTSTYLE
  7
STANDARD
  9
$CLAYER
  8
ITEM_50
  9
$CELTYPE
  6
BYLAYER
  9
$CECOLOR
 62
   256
  9
$DIMSCALE
 40
1.0
  9
$DIMASZ
 40
2.5
  9
$DIMEXO
 40
1.0
  9
$DIMDLI
 40
8.0
  9
$DIMRND
 40
0.0
  9
$DIMDLE
 40
0.0
  9
$DIMEXE
 40
2.0
  9
$DIMTP
 40
0.1
  9
$DIMTM
 40
0.1
  9
$DIMTXT
 40
3.5
  9
$DIMCEN
 40
2.0
  9
$DIMTSZ
 40
0.0
  9
$DIMTOL
 70
     0
  9
$DIMLIM
 70
     0
  9
$DIMTIH
 70
     0
  9
$DIMTOH
 70
     0
  9
$DIMSE1
 70
     0
  9
$DIMSE2
 70
     0
  9
$DIMTAD
 70
     1
  9
$DIMZIN
 70
     8
  9
$DIMBLK
  1

  9
$DIMASO
 70
     0
  9
$DIMSHO
 70
     0
  9
$DIMPOST
  1

  9
$DIMAPOST
  1

  9
$DIMALT
 70
     0
  9
$DIMALTD
 70
     2
  9
$DIMALTF
 40
25.39999999999999
  9
$DIMLFAC
 40
1.0
  9
$DIMTOFL
 70
     1
  9
$DIMTVP
 40
0.0
  9
$DIMTIX
 70
     0
  9
$DIMSOXD
 70
     0
  9
$DIMSAH
 70
     0
  9
$DIMBLK1
  1

  9
$DIMBLK2
  1

  9
$DIMSTYLE
  2
*UNNAMED
  9
$DIMCLRD
 70
     0
  9
$DIMCLRE
 70
     0
  9
$DIMCLRT
 70
     0
  9
$DIMTFAC
 40
1.0
  9
$DIMGAP
 40
0.09
  9
$LUNITS
 70
     2
  9
$LUPREC
 70
     3
  9
$SKETCHINC
 40
0.1
  9
$FILLETRAD
 40
4.0
  9
$AUNITS
 70
     0
  9
$AUPREC
 70
     3
  9
$MENU
  1

  9
$ELEVATION
 40
0.0
  9
$PELEVATION
 40
0.0
  9
$THICKNESS
 40
0.0
  9
$LIMCHECK
 70
     0
  9
$BLIPMODE
 70
     0
  9
$CHAMFERA
 40
0.0
  9
$CHAMFERB
 40
0.0
  9
$SKPOLY
 70
     1
  9
$TDCREATE
 40
2448785.375805323
  9
$TDUPDATE
 40
2449393.454954050
  9
$TDINDWG
 40
0.0041498843
  9
$TDUSRTIMER
 40
0.0041498843
  9
$USRTIMER
 70
     1
  9
$ANGBASE
 50
0.0
  9
$ANGDIR
 70
     0
  9
$PDMODE
 70
     3
  9
$PDSIZE
 40
2.0
  9
$PLINEWID
 40
0.0
  9
$COORDS
 70
     2
  9
$SPLFRAME
 70
     0
  9
$SPLINETYPE
 70
     6
  9
$SPLINESEGS
 70
     8
  9
$ATTDIA
 70
     1
  9
$ATTREQ
 70
     1
  9
$HANDLING
 70
     0
  9
$HANDSEED
  5
122
  9
$SURFTAB1
 70
     6
  9
$SURFTAB2
 70
     6
  9
$SURFTYPE
 70
     6
  9
$SURFU
 70
     6
  9
$SURFV
 70
     6
  9
$UCSNAME
  2

  9
$UCSORG
 10
0.0
 20
0.0
 30
0.0
  9
$UCSXDIR
 10
1.0
 20
0.0
 30
0.0
  9
$UCSYDIR
 10
0.0
 20
1.0
 30
0.0
  9
$PUCSNAME
  2

  9
$PUCSORG
 10
0.0
 20
0.0
 30
0.0
  9
$PUCSXDIR
 10
1.0
 20
0.0
 30
0.0
  9
$PUCSYDIR
 10
0.0
 20
1.0
 30
0.0
  9
$USERI1
 70
     0
  9
$USERI2
 70
     3
  9
$USERI3
 70
    15
  9
$USERI4
 70
     0
  9
$USERI5
 70
     0
  9
$USERR1
 40
0.0
  9
$USERR2
 40
1.0
  9
$USERR3
 40
0.0
  9
$USERR4
 40
1.0
  9
$USERR5
 40
0.0
  9
$WORLDVIEW
 70
     1
  9
$SHADEDGE
 70
     3
  9
$SHADEDIF
 70
    70
  9
$TILEMODE
 70
     1
  9
$MAXACTVP
 70
    16
  9
$PINSBASE
 10
0.0
 20
0.0
 30
0.0
  9
$PLIMCHECK
 70
     0
  9
$PEXTMIN
 10
1.000000000000000E+20
 20
1.000000000000000E+20
 30
1.000000000000000E+20
  9
$PEXTMAX
 10
-1.000000000000000E+20
 20
-1.000000000000000E+20
 30
-1.000000000000000E+20
  9
$PLIMMIN
 10
0.0
 20
0.0
  9
$PLIMMAX
 10
12.0
 20
9.0
  9
$UNITMODE
 70
     0
  9
$VISRETAIN
 70
     0
  9
$PLINEGEN
 70
     0
  9
$PSLTSCALE
 70
     0
  9
$TREEDEPTH
 70
  3020
  9
$DWGCODEPAGE
  3
undefined
  0
ENDSEC
  0
SECTION
  2
TABLES
  0
TABLE
  2
VPORT
 70
     2
  0
VPORT
  2
*ACTIVE
 70
     0
 10
0.0
 20
0.0
 11
1.0
 21
1.0
 12
1312.08168833662
 22
289.3849577352456
 13
0.0
 23
0.0
 14
7.0
 24
7.0
 15
0.0
 25
0.0
 16
0.0
 26
0.0
 36
1.0
 17
0.0
 27
0.0
 37
0.0
 40
1916.538723464901
 41
1.275675675675675
 42
50.0
 43
0.0
 44
0.0
 50
0.0
 51
0.0
 71
     0
 72
 10000
 73
     1
 74
     0
 75
     0
 76
     0
 77
     0
 78
     0
  0
ENDTAB
  0
TABLE
  2
LTYPE
 70
     1
  0
LTYPE
  2
AUSGEZOGEN
 70
    64
  3
Solid line
 72
    65
 73
     0
 40
0.0
  0
ENDTAB
  0
TABLE
  2
LAYER
 70
     4
  0
LAYER
  2
0
 70
    64
 62
     7
  6
AUSGEZOGEN
  0
LAYER
  2
ITEM_50
 70
    64
 62
     7
  6
AUSGEZOGEN
  0
LAYER
  2
ITEM_25
 70
    64
 62
     3
  6
AUSGEZOGEN
  0
LAYER
  2
ITEM_HILFE
 70
     0
 62
     3
  6
AUSGEZOGEN
  0
ENDTAB
  0
TABLE
  2
STYLE
 70
     1
  0
STYLE
  2
STANDARD
 70
     0
 40
0.0
 41
1.0
 50
0.0
 71
     0
 42
3.5
  3
iso
  4

  0
ENDTAB
  0
TABLE
  2
VIEW
 70
     0
  0
ENDTAB
  0
TABLE
  2
UCS
 70
     0
  0
ENDTAB
  0
TABLE
  2
APPID
 70
     1
  0
APPID
  2
ACAD
 70
    64
  0
ENDTAB
  0
TABLE
  2
DIMSTYLE
 70
     0
  0
ENDTAB
  0
ENDSEC
  0
SECTION
  2
BLOCKS
  0
ENDSEC
  0
SECTION
  2
ENTITIES
  0
LINE
  8
ITEM_50
 10
93.64077282928678
 20
-68.88440399719704
 30
0.0
 11
125.6407728292878
 21
-68.88440399719704
 31
0.0
  0
LINE
  8
ITEM_50
 10
129.6407728292867
 20
-68.88440399719704
 30
0.0
 11
129.6407728292867
 21
-668.884403997197
 31
0.0
  0
LINE
  8
ITEM_50
 10
125.6407728292878
 20
-668.884403997197
 30
0.0
 11
93.64077282928573
 21
-668.884403997197
 31
0.0
  0
LINE
  8
ITEM_50
 10
89.64077282928678
 20
-628.884403997197
 30
0.0
 11
89.64077282928677
 21
-108.884403997197
 31
0.0
  0
LINE
  8
ITEM_50
 10
105.6407728292867
 20
-108.884403997197
 30
0.0
 11
105.6407728292867
 21
-628.8844039972053
 31
0.0
  0
LINE
  8
ITEM_50
 10
113.6407728292867
 20
-628.8844039972053
 30
0.0
 11
113.6407728292868
 21
-108.884403997197
 31
0.0
  0
LINE
  8
ITEM_50
 10
129.6407728292867
 20
-68.88440399719704
 30
0.0
 11
1049.640772829286
 21
-68.88440399719704
 31
0.0
  0
LINE
  8
ITEM_50
 10
1049.640772829286
 20
-68.88440399719706
 30
0.0
 11
1049.640772829286
 21
-108.884403997197
 31
0.0
  0
LINE
  8
ITEM_50
 10
1049.640772829286
 20
-108.884403997197
 30
0.0
 11
129.6407728292867
 21
-108.884403997197
 31
0.0
  0
LINE
  8
ITEM_50
 10
129.6407728292867
 20
-108.884403997197
 30
0.0
 11
129.6407728292867
 21
-68.88440399719704
 31
0.0
  0
LINE
  8
ITEM_50
 10
129.6407728292867
 20
-84.88440399719704
 30
0.0
 11
1049.640772829286
 21
-84.88440399719704
 31
0.0
  0
LINE
  8
ITEM_50
 10
1049.640772829286
 20
-92.88440399719704
 30
0.0
 11
129.6407728292867
 21
-92.88440399719704
 31
0.0
  0
LINE
  8
ITEM_50
 10
129.6407728292867
 20
1097.841529460202
 30
0.0
 11
89.64077282928678
 21
1097.841529460202
 31
0.0
  0
LINE
  8
ITEM_50
 10
89.64077282928678
 20
1097.841529460202
 30
0.0
 11
89.64077282928678
 21
247.8415294602023
 31
0.0
  0
LINE
  8
ITEM_50
 10
89.64077282928678
 20
247.8415294602023
 30
0.0
 11
129.6407728292867
 21
247.8415294602023
 31
0.0
  0
LINE
  8
ITEM_50
 10
129.6407728292867
 20
247.8415294602023
 30
0.0
 11
129.6407728292867
 21
1097.841529460202
 31
0.0
  0
LINE
  8
ITEM_50
 10
113.6407728292867
 20
1097.841529460202
 30
0.0
 11
113.6407728292867
 21
247.8415294602023
 31
0.0
  0
LINE
  8
ITEM_50
 10
105.6407728292867
 20
247.8415294602023
 30
0.0
 11
105.6407728292867
 21
1097.841529460202
 31
0.0
  0
LINE
  8
ITEM_50
 10
1049.640772829286
 20
1097.841529460202
 30
0.0
 11
1089.640772829286
 21
1097.841529460202
 31
0.0
  0
LINE
  8
ITEM_50
 10
1089.640772829286
 20
1097.841529460202
 30
0.0
 11
1089.640772829286
 21
247.8415294602023
 31
0.0
  0
LINE
  8
ITEM_50
 10
1089.640772829286
 20
247.8415294602023
 30
0.0
 11
1049.640772829286
 21
247.8415294602023
 31
0.0
  0
LINE
  8
ITEM_50
 10
1049.640772829286
 20
247.8415294602023
 30
0.0
 11
1049.640772829286
 21
1097.841529460202
 31
0.0
  0
LINE
  8
ITEM_50
 10
1065.640772829286
 20
1097.841529460202
 30
0.0
 11
1065.640772829286
 21
247.8415294602023
 31
0.0
  0
LINE
  8
ITEM_50
 10
1073.640772829286
 20
247.8415294602023
 30
0.0
 11
1073.640772829286
 21
1097.841529460202
 31
0.0
  0
LINE
  8
0
 10
1089.640772829286
 20
-108.884403997197
 30
0.0
 11
1089.640772829286
 21
-471.4482479230482
 31
0.0
  0
ARC
  8
ITEM_50
 10
125.6407728292878
 20
-72.88440399718888
 30
0.0
 40
4.0
 50
0.0
 51
90.00000000002931
  0
LINE
  8
ITEM_50
 10
129.6407728292857
 20
-104.8844039971889
 30
0.0
 11
129.6407728292878
 21
-72.88440399718888
 31
0.0
  0
ARC
  8
ITEM_50
 10
125.6407728292857
 20
-104.8844039971886
 30
0.0
 40
4.0
 50
270.0
 51
359.9999999999963
  0
LINE
  8
ITEM_50
 10
93.64077282928576
 20
-108.8844039971889
 30
0.0
 11
125.6407728292857
 21
-108.8844039971886
 31
0.0
  0
ARC
  8
ITEM_50
 10
93.64077282928573
 20
-104.8844039971889
 30
0.0
 40
4.0
 50
180.0
 51
270.0000000000003
  0
ARC
  8
ITEM_50
 10
93.64077282928573
 20
-72.88440399718888
 30
0.0
 40
4.0
 50
90.0
 51
180.0
  0
LINE
  8
ITEM_25
 10
92.14077282928568
 20
-73.88440399718888
 30
0.0
 11
92.1407728292857
 21
-103.8844039971889
 31
0.0
  0
LINE
  8
ITEM_25
 10
124.6407728292857
 20
-71.38440399718888
 30
0.0
 11
94.64077282928568
 21
-71.38440399718888
 31
0.0
  0
LINE
  8
ITEM_50
 10
125.6407728292857
 20
-68.88440399718888
 30
0.0
 11
93.64077282928573
 21
-68.88440399720525
 31
0.0
  0
LINE
  8
ITEM_50
 10
89.64077282928573
 20
-72.88440399718888
 30
0.0
 11
89.64077282928573
 21
-104.8844039971889
 31
0.0
  0
LINE
  8
ITEM_25
 10
94.6407728292857
 20
-106.3844039971888
 30
0.0
 11
124.6407728292857
 21
-106.3844039971889
 31
0.0
  0
LINE
  8
ITEM_25
 10
127.1407728292857
 20
-103.8844039971889
 30
0.0
 11
127.1407728292857
 21
-73.88440399718888
 31
0.0
  0
ARC
  8
ITEM_50
 10
93.64077282928678
 20
-72.88440399719704
 30
0.0
 40
4.0
 50
90.0
 51
180.0
  0
LINE
  8
ITEM_50
 10
129.6407728292867
 20
-108.884403997197
 30
0.0
 11
89.64077282928677
 21
-108.884403997197
 31
0.0
  0
LINE
  8
ITEM_50
 10
1089.640772829286
 20
-108.884403997197
 30
0.0
 11
1089.640772829286
 21
-628.8844039971969
 31
0.0
  0
LINE
  8
ITEM_50
 10
1049.640772829286
 20
-668.884403997197
 30
0.0
 11
1049.640772829286
 21
-108.884403997197
 31
0.0
  0
LINE
  8
ITEM_50
 10
1065.640772829286
 20
-108.884403997197
 30
0.0
 11
1065.640772829286
 21
-628.8844039971969
 31
0.0
  0
LINE
  8
ITEM_50
 10
1073.640772829286
 20
-628.8844039971969
 30
0.0
 11
1073.640772829286
 21
-108.884403997197
 31
0.0
  0
LINE
  8
ITEM_50
 10
1049.640772829286
 20
-108.884403997197
 30
0.0
 11
1089.640772829287
 21
-108.884403997197
 31
0.0
  0
LINE
  8
ITEM_50
 10
129.6407728292867
 20
-628.884403997197
 30
0.0
 11
89.64077282928677
 21
-628.884403997197
 31
0.0
  0
ARC
  8
ITEM_50
 10
93.64077282928678
 20
-664.884403997197
 30
0.0
 40
4.0
 50
180.0
 51
270.0
  0
LINE
  8
ITEM_25
 10
127.1407728292857
 20
-633.8844039972052
 30
0.0
 11
127.1407728292857
 21
-663.8844039972052
 31
0.0
  0
LINE
  8
ITEM_25
 10
94.6407728292857
 20
-631.3844039972052
 30
0.0
 11
124.6407728292857
 21
-631.3844039972052
 31
0.0
  0
LINE
  8
ITEM_50
 10
89.64077282928573
 20
-664.8844039972052
 30
0.0
 11
89.64077282928573
 21
-632.8844039972052
 31
0.0
  0
LINE
  8
ITEM_50
 10
125.6407728292857
 20
-668.8844039972052
 30
0.0
 11
93.64077282928573
 21
-668.8844039971888
 31
0.0
  0
LINE
  8
ITEM_25
 10
124.6407728292857
 20
-666.3844039972052
 30
0.0
 11
94.64077282928568
 21
-666.3844039972052
 31
0.0
  0
LINE
  8
ITEM_25
 10
92.14077282928568
 20
-663.8844039972052
 30
0.0
 11
92.1407728292857
 21
-633.8844039972052
 31
0.0
  0
ARC
  8
ITEM_50
 10
93.64077282928573
 20
-664.8844039972052
 30
0.0
 40
4.0
 50
180.0
 51
270.0
  0
ARC
  8
ITEM_50
 10
93.64077282928573
 20
-632.8844039972052
 30
0.0
 40
4.0
 50
89.99999999999958
 51
180.0
  0
LINE
  8
ITEM_50
 10
93.64077282928576
 20
-628.8844039972052
 30
0.0
 11
125.6407728292857
 21
-628.8844039972054
 31
0.0
  0
ARC
  8
ITEM_50
 10
125.6407728292857
 20
-632.8844039972054
 30
0.0
 40
4.0
 50
0.000000000003664
 51
90.0
  0
LINE
  8
ITEM_50
 10
129.6407728292857
 20
-632.8844039972052
 30
0.0
 11
129.6407728292878
 21
-664.8844039972052
 31
0.0
  0
ARC
  8
ITEM_50
 10
125.6407728292878
 20
-664.8844039972052
 30
0.0
 40
4.0
 50
269.9999999999706
 51
0.0
  0
LINE
  8
ITEM_50
 10
129.6407728292867
 20
-628.884403997197
 30
0.0
 11
129.6407728292867
 21
-668.884403997197
 31
0.0
  0
LINE
  8
ITEM_50
 10
93.64077282928678
 20
-668.884403997197
 30
0.0
 11
125.6407728292878
 21
-668.884403997197
 31
0.0
  0
LINE
  8
ITEM_50
 10
1049.640772829286
 20
-628.884403997197
 30
0.0
 11
1089.640772829287
 21
-628.884403997197
 31
0.0
  0
LINE
  8
ITEM_50
 10
1049.640772829286
 20
-668.884403997197
 30
0.0
 11
1049.640772829286
 21
-628.884403997197
 31
0.0
  0
LINE
  8
ITEM_50
 10
129.6407728292867
 20
1097.841529460202
 30
0.0
 11
129.6407728292867
 21
1017.841529460202
 31
0.0
  0
LINE
  8
ITEM_50
 10
129.6407728292867
 20
1017.841529460202
 30
0.0
 11
1049.640772829286
 21
1017.841529460202
 31
0.0
  0
LINE
  8
ITEM_50
 10
1049.640772829286
 20
1017.841529460202
 30
0.0
 11
1049.640772829286
 21
1097.841529460202
 31
0.0
  0
LINE
  8
ITEM_50
 10
1049.640772829286
 20
1097.841529460202
 30
0.0
 11
129.6407728292867
 21
1097.841529460202
 31
0.0
  0
LINE
  8
ITEM_50
 10
129.6407728292867
 20
1081.841529460202
 30
0.0
 11
1049.640772829286
 21
1081.841529460202
 31
0.0
  0
LINE
  8
ITEM_50
 10
1049.640772829286
 20
1073.841529460202
 30
0.0
 11
129.6407728292867
 21
1073.841529460202
 31
0.0
  0
LINE
  8
ITEM_50
 10
129.6407728292867
 20
1033.841529460202
 30
0.0
 11
1049.640772829286
 21
1033.841529460202
 31
0.0
  0
LINE
  8
ITEM_50
 10
1049.640772829286
 20
1041.841529460202
 30
0.0
 11
129.6407728292867
 21
1041.841529460202
 31
0.0
  0
LINE
  8
ITEM_50
 10
2218.345142279292
 20
1041.841529460202
 30
0.0
 11
1698.345142279292
 21
1041.841529460202
 31
0.0
  0
LINE
  8
ITEM_50
 10
1698.345142279292
 20
1033.841529460202
 30
0.0
 11
2218.345142279292
 21
1033.841529460202
 31
0.0
  0
LINE
  8
ITEM_50
 10
2218.345142279292
 20
1073.841529460202
 30
0.0
 11
1698.345142279292
 21
1073.841529460202
 31
0.0
  0
LINE
  8
ITEM_50
 10
1698.345142279292
 20
1081.841529460202
 30
0.0
 11
2218.345142279292
 21
1081.841529460202
 31
0.0
  0
LINE
  8
ITEM_50
 10
2218.345142279292
 20
1097.841529460202
 30
0.0
 11
1698.345142279292
 21
1097.841529460202
 31
0.0
  0
LINE
  8
ITEM_50
 10
2218.345142279292
 20
1017.841529460202
 30
0.0
 11
2218.345142279292
 21
1097.841529460202
 31
0.0
  0
LINE
  8
ITEM_50
 10
1698.345142279292
 20
1017.841529460202
 30
0.0
 11
2218.345142279292
 21
1017.841529460202
 31
0.0
  0
LINE
  8
ITEM_50
 10
1698.345142279292
 20
1097.841529460202
 30
0.0
 11
1698.345142279292
 21
1017.841529460202
 31
0.0
  0
LINE
  8
ITEM_50
 10
2242.345142279292
 20
247.8415294602023
 30
0.0
 11
2242.345142279292
 21
1097.841529460202
 31
0.0
  0
LINE
  8
ITEM_50
 10
2234.345142279292
 20
1097.841529460202
 30
0.0
 11
2234.345142279292
 21
247.8415294602023
 31
0.0
  0
LINE
  8
ITEM_50
 10
2218.345142279292
 20
247.8415294602023
 30
0.0
 11
2218.345142279292
 21
1097.841529460202
 31
0.0
  0
LINE
  8
ITEM_50
 10
2258.345142279292
 20
247.8415294602023
 30
0.0
 11
2218.345142279292
 21
247.8415294602023
 31
0.0
  0
LINE
  8
ITEM_50
 10
2258.345142279292
 20
1097.841529460202
 30
0.0
 11
2258.345142279292
 21
247.8415294602023
 31
0.0
  0
LINE
  8
ITEM_50
 10
2218.345142279292
 20
1097.841529460202
 30
0.0
 11
2258.345142279292
 21
1097.841529460202
 31
0.0
  0
LINE
  8
ITEM_50
 10
1674.345142279292
 20
247.8415294602023
 30
0.0
 11
1674.345142279292
 21
1097.841529460202
 31
0.0
  0
LINE
  8
ITEM_50
 10
1682.345142279292
 20
1097.841529460202
 30
0.0
 11
1682.345142279292
 21
247.8415294602023
 31
0.0
  0
LINE
  8
ITEM_50
 10
1698.345142279292
 20
247.8415294602023
 30
0.0
 11
1698.345142279292
 21
1097.841529460202
 31
0.0
  0
LINE
  8
ITEM_50
 10
1658.345142279292
 20
247.8415294602023
 30
0.0
 11
1698.345142279292
 21
247.8415294602023
 31
0.0
  0
LINE
  8
ITEM_50
 10
1658.345142279292
 20
1097.841529460202
 30
0.0
 11
1658.345142279292
 21
247.8415294602023
 31
0.0
  0
LINE
  8
ITEM_50
 10
1698.345142279292
 20
1097.841529460202
 30
0.0
 11
1658.345142279292
 21
1097.841529460202
 31
0.0
  0
LINE
  8
ITEM_50
 10
2218.345142279292
 20
1097.841529460202
 30
0.0
 11
2218.345142279292
 21
1017.841529460202
 31
0.0
  0
LINE
  8
ITEM_50
 10
93.64077282928677
 20
241.8415294602023
 30
0.0
 11
93.64077282928677
 21
231.8415294602023
 31
0.0
  0
LINE
  8
ITEM_50
 10
125.6407728292867
 20
241.8415294602023
 30
0.0
 11
125.6407728292867
 21
231.8415294602023
 31
0.0
  0
LINE
  8
ITEM_50
 10
1053.640772829286
 20
241.8415294602023
 30
0.0
 11
1053.640772829286
 21
231.8415294602023
 31
0.0
  0
LINE
  8
ITEM_50
 10
1085.640772829286
 20
241.8415294602023
 30
0.0
 11
1085.640772829286
 21
231.8415294602023
 31
0.0
  0
LINE
  8
ITEM_50
 10
1662.345142279292
 20
241.8415294602023
 30
0.0
 11
1662.345142279292
 21
231.8415294602023
 31
0.0
  0
LINE
  8
ITEM_50
 10
1694.345142279292
 20
241.8415294602023
 30
0.0
 11
1694.345142279292
 21
231.8415294602023
 31
0.0
  0
LINE
  8
ITEM_50
 10
2222.345142279292
 20
241.8415294602023
 30
0.0
 11
2222.345142279292
 21
231.8415294602023
 31
0.0
  0
LINE
  8
ITEM_50
 10
2254.345142279292
 20
241.8415294602023
 30
0.0
 11
2254.345142279292
 21
231.8415294602023
 31
0.0
  0
ARC
  8
ITEM_50
 10
1053.640772829285
 20
-104.8844039972052
 30
0.0
 40
4.0
 50
180.0
 51
270.0000000000293
  0
LINE
  8
ITEM_50
 10
1049.640772829287
 20
-72.88440399720525
 30
0.0
 11
1049.640772829285
 21
-104.8844039972052
 31
0.0
  0
ARC
  8
ITEM_50
 10
1053.640772829287
 20
-72.88440399720548
 30
0.0
 40
4.0
 50
90.0
 51
179.9999999999963
  0
LINE
  8
ITEM_50
 10
1085.640772829287
 20
-68.88440399720525
 30
0.0
 11
1053.640772829287
 21
-68.88440399720548
 31
0.0
  0
ARC
  8
ITEM_50
 10
1085.640772829287
 20
-72.88440399720522
 30
0.0
 40
4.0
 50
0.0
 51
90.00000000000041
  0
ARC
  8
ITEM_50
 10
1085.640772829287
 20
-104.8844039972052
 30
0.0
 40
4.0
 50
270.0
 51
0.0
  0
LINE
  8
ITEM_25
 10
1087.140772829287
 20
-103.8844039972052
 30
0.0
 11
1087.140772829287
 21
-73.88440399720525
 31
0.0
  0
LINE
  8
ITEM_25
 10
1054.640772829287
 20
-106.3844039972052
 30
0.0
 11
1084.640772829287
 21
-106.3844039972052
 31
0.0
  0
LINE
  8
ITEM_50
 10
1053.640772829287
 20
-108.8844039972052
 30
0.0
 11
1085.640772829287
 21
-108.8844039971888
 31
0.0
  0
LINE
  8
ITEM_50
 10
1089.640772829287
 20
-104.8844039972052
 30
0.0
 11
1089.640772829287
 21
-72.88440399720525
 31
0.0
  0
LINE
  8
ITEM_25
 10
1084.640772829287
 20
-71.38440399720525
 30
0.0
 11
1054.640772829287
 21
-71.38440399720525
 31
0.0
  0
LINE
  8
ITEM_25
 10
1052.140772829287
 20
-73.88440399720525
 30
0.0
 11
1052.140772829287
 21
-103.8844039972052
 31
0.0
  0
LINE
  8
ITEM_50
 10
129.6407728292867
 20
-668.884403997197
 30
0.0
 11
1049.640772829286
 21
-668.884403997197
 31
0.0
  0
LINE
  8
ITEM_50
 10
1049.640772829286
 20
-668.884403997197
 30
0.0
 11
1049.640772829286
 21
-628.884403997197
 31
0.0
  0
LINE
  8
ITEM_50
 10
1049.640772829286
 20
-628.884403997197
 30
0.0
 11
129.6407728292867
 21
-628.884403997197
 31
0.0
  0
LINE
  8
ITEM_50
 10
129.6407728292867
 20
-628.884403997197
 30
0.0
 11
129.6407728292867
 21
-668.884403997197
 31
0.0
  0
LINE
  8
ITEM_50
 10
129.6407728292867
 20
-652.884403997197
 30
0.0
 11
1049.640772829286
 21
-652.884403997197
 31
0.0
  0
LINE
  8
ITEM_50
 10
1049.640772829286
 20
-644.884403997197
 30
0.0
 11
129.6407728292867
 21
-644.884403997197
 31
0.0
  0
LINE
  8
ITEM_50
 10
131.1407728292867
 20
-627.384403997197
 30
0.0
 11
1048.140772829286
 21
-627.384403997197
 31
0.0
  0
LINE
  8
ITEM_50
 10
1048.140772829286
 20
-627.384403997197
 30
0.0
 11
1048.140772829286
 21
-110.384403997197
 31
0.0
  0
LINE
  8
ITEM_50
 10
1048.140772829286
 20
-110.384403997197
 30
0.0
 11
131.1407728292867
 21
-110.384403997197
 31
0.0
  0
LINE
  8
ITEM_50
 10
131.1407728292867
 20
-110.384403997197
 30
0.0
 11
131.1407728292867
 21
-627.384403997197
 31
0.0
  0
LINE
  8
ITEM_50
 10
89.64077282928677
 20
229.8415294602023
 30
0.0
 11
129.6058626994393
 21
229.8415294602023
 31
0.0
  0
LINE
  8
ITEM_50
 10
90.62086327882572
 20
203.8415294602023
 30
0.0
 11
128.6606823797478
 21
203.8415294602023
 31
0.0
  0
LINE
  8
ITEM_50
 10
104.9718655521689
 20
229.8415294602023
 30
0.0
 11
105.0859600636983
 21
203.8415294602023
 31
0.0
  0
LINE
  8
ITEM_50
 10
101.9871041819851
 20
229.8415294602023
 30
0.0
 11
102.1741375784294
 21
203.8415294602023
 31
0.0
  0
LINE
  8
ITEM_50
 10
99.19080153496791
 20
229.8415294602023
 30
0.0
 11
99.4461684333781
 21
203.8415294602023
 31
0.0
  0
LINE
  8
ITEM_50
 10
96.6518118626832
 20
229.8415294602023
 30
0.0
 11
96.96922428250671
 21
203.8415294602023
 31
0.0
  0
LINE
  8
ITEM_50
 10
94.43265351728619
 20
229.8415294602023
 30
0.0
 11
94.80429571131521
 21
203.8415294602023
 31
0.0
  0
LINE
  8
ITEM_50
 10
92.58796954220495
 20
229.8415294602023
 30
0.0
 11
93.00469044621247
 21
203.8415294602023
 31
0.0
  0
LINE
  8
ITEM_50
 10
91.16318217906102
 20
229.8415294602023
 30
0.0
 11
91.61472074137346
 21
203.8415294602023
 31
0.0
  0
LINE
  8
ITEM_50
 10
90.19337442133316
 20
229.8415294602023
 30
0.0
 11
90.66861226397604
 21
203.8415294602023
 31
0.0
  0
LINE
  8
ITEM_50
 10
108.0715909147301
 20
229.8415294602023
 30
0.0
 11
108.109937155813
 21
203.8415294602023
 31
0.0
  0
LINE
  8
ITEM_50
 10
129.0881712372404
 20
229.8415294602023
 30
0.0
 11
128.6129333945975
 21
203.8415294602023
 31
0.0
  0
LINE
  8
ITEM_50
 10
128.1183634795125
 20
229.8415294602023
 30
0.0
 11
127.6668249172001
 21
203.8415294602023
 31
0.0
  0
LINE
  8
ITEM_50
 10
126.6935761163686
 20
229.8415294602023
 30
0.0
 11
126.2768552123611
 21
203.8415294602023
 31
0.0
  0
LINE
  8
ITEM_50
 10
124.8488921412874
 20
229.8415294602023
 30
0.0
 11
124.4772499472583
 21
203.8415294602023
 31
0.0
  0
LINE
  8
ITEM_50
 10
122.6297337958904
 20
229.8415294602023
 30
0.0
 11
122.3123213760668
 21
203.8415294602023
 31
0.0
  0
LINE
  8
ITEM_50
 10
120.0907441236056
 20
229.8415294602023
 30
0.0
 11
119.8353772251955
 21
203.8415294602023
 31
0.0
  0
LINE
  8
ITEM_50
 10
117.2944414765884
 20
229.8415294602023
 30
0.0
 11
117.1074080801441
 21
203.8415294602023
 31
0.0
  0
LINE
  8
ITEM_50
 10
114.3096801064046
 20
229.8415294602023
 30
0.0
 11
114.1955855948752
 21
203.8415294602023
 31
0.0
  0
LINE
  8
ITEM_50
 10
111.2099547438434
 20
229.8415294602023
 30
0.0
 11
111.1716085027605
 21
203.8415294602023
 31
0.0
  0
ARC
  8
ITEM_50
 10
128.6606823797478
 20
204.3415294602023
 30
0.0
 40
0.5
 50
270.0
 51
358.9999999999999
  0
ARC
  8
ITEM_50
 10
90.62086327882572
 20
204.3415294602023
 30
0.0
 40
0.5
 50
181.0
 51
270.0
  0
ARC
  8
ITEM_50
 10
124.1163592412297
 20
201.8415294602023
 30
0.0
 40
4.0
 50
269.9999999999999
 51
358.9999999999999
  0
ARC
  8
ITEM_50
 10
95.16518641734383
 20
201.8415294602023
 30
0.0
 40
4.0
 50
181.0
 51
270.0
  0
LINE
  8
ITEM_50
 10
95.16518641734383
 20
197.8415294602023
 30
0.0
 11
124.1163592412297
 21
197.8415294602023
 31
0.0
  0
LINE
  8
ITEM_50
 10
128.1518786832617
 20
203.8415294602023
 30
0.0
 11
128.1157500218552
 21
201.7717198344532
 31
0.0
  0
LINE
  8
ITEM_50
 10
129.6407728292957
 20
231.8415294602023
 30
0.0
 11
129.160606227326
 21
204.3328032569837
 31
0.0
  0
LINE
  8
ITEM_50
 10
91.12966697531176
 20
203.8415294602023
 30
0.0
 11
91.16579563671827
 21
201.7717198344532
 31
0.0
  0
LINE
  8
ITEM_50
 10
89.64077282927776
 20
231.8415294602023
 30
0.0
 11
90.12093943124752
 21
204.3328032569837
 31
0.0
  0
LINE
  8
ITEM_50
 10
89.64077282928677
 20
231.8415294602023
 30
0.0
 11
129.6407728292867
 21
231.8415294602023
 31
0.0
  0
LINE
  8
ITEM_50
 10
89.64077282928677
 20
247.8415294602023
 30
0.0
 11
89.64077282928677
 21
241.8415294602023
 31
0.0
  0
LINE
  8
ITEM_50
 10
129.6407728292867
 20
247.8415294602023
 30
0.0
 11
89.64077282928677
 21
247.8415294602023
 31
0.0
  0
LINE
  8
ITEM_50
 10
129.6407728292867
 20
241.8415294602023
 30
0.0
 11
129.6407728292867
 21
247.8415294602023
 31
0.0
  0
LINE
  8
ITEM_50
 10
89.64077282928677
 20
241.8415294602023
 30
0.0
 11
129.6407728292867
 21
241.8415294602023
 31
0.0
  0
LINE
  8
ITEM_50
 10
1049.640772829286
 20
229.8415294602023
 30
0.0
 11
1089.605862699439
 21
229.8415294602023
 31
0.0
  0
LINE
  8
ITEM_50
 10
1050.620863278825
 20
203.8415294602023
 30
0.0
 11
1088.660682379747
 21
203.8415294602023
 31
0.0
  0
LINE
  8
ITEM_50
 10
1064.971865552168
 20
229.8415294602023
 30
0.0
 11
1065.085960063698
 21
203.8415294602023
 31
0.0
  0
LINE
  8
ITEM_50
 10
1061.987104181985
 20
229.8415294602023
 30
0.0
 11
1062.174137578429
 21
203.8415294602023
 31
0.0
  0
LINE
  8
ITEM_50
 10
1059.190801534967
 20
229.8415294602023
 30
0.0
 11
1059.446168433378
 21
203.8415294602023
 31
0.0
  0
LINE
  8
ITEM_50
 10
1056.651811862683
 20
229.8415294602023
 30
0.0
 11
1056.969224282506
 21
203.8415294602023
 31
0.0
  0
LINE
  8
ITEM_50
 10
1054.432653517286
 20
229.8415294602023
 30
0.0
 11
1054.804295711315
 21
203.8415294602023
 31
0.0
  0
LINE
  8
ITEM_50
 10
1052.587969542204
 20
229.8415294602023
 30
0.0
 11
1053.004690446212
 21
203.8415294602023
 31
0.0
  0
LINE
  8
ITEM_50
 10
1051.163182179061
 20
229.8415294602023
 30
0.0
 11
1051.614720741373
 21
203.8415294602023
 31
0.0
  0
LINE
  8
ITEM_50
 10
1050.193374421333
 20
229.8415294602023
 30
0.0
 11
1050.668612263976
 21
203.8415294602023
 31
0.0
  0
LINE
  8
ITEM_50
 10
1068.07159091473
 20
229.8415294602023
 30
0.0
 11
1068.109937155812
 21
203.8415294602023
 31
0.0
  0
LINE
  8
ITEM_50
 10
1089.08817123724
 20
229.8415294602023
 30
0.0
 11
1088.612933394597
 21
203.8415294602023
 31
0.0
  0
LINE
  8
ITEM_50
 10
1088.118363479512
 20
229.8415294602023
 30
0.0
 11
1087.6668249172
 21
203.8415294602023
 31
0.0
  0
LINE
  8
ITEM_50
 10
1086.693576116368
 20
229.8415294602023
 30
0.0
 11
1086.276855212361
 21
203.8415294602023
 31
0.0
  0
LINE
  8
ITEM_50
 10
1084.848892141287
 20
229.8415294602023
 30
0.0
 11
1084.477249947258
 21
203.8415294602023
 31
0.0
  0
LINE
  8
ITEM_50
 10
1082.62973379589
 20
229.8415294602023
 30
0.0
 11
1082.312321376066
 21
203.8415294602023
 31
0.0
  0
LINE
  8
ITEM_50
 10
1080.090744123605
 20
229.8415294602023
 30
0.0
 11
1079.835377225195
 21
203.8415294602023
 31
0.0
  0
LINE
  8
ITEM_50
 10
1077.294441476588
 20
229.8415294602023
 30
0.0
 11
1077.107408080144
 21
203.8415294602023
 31
0.0
  0
LINE
  8
ITEM_50
 10
1074.309680106404
 20
229.8415294602023
 30
0.0
 11
1074.195585594875
 21
203.8415294602023
 31
0.0
  0
LINE
  8
ITEM_50
 10
1071.209954743843
 20
229.8415294602023
 30
0.0
 11
1071.17160850276
 21
203.8415294602023
 31
0.0
  0
ARC
  8
ITEM_50
 10
1088.660682379747
 20
204.3415294602023
 30
0.0
 40
0.5
 50
270.0
 51
358.9999999999999
  0
ARC
  8
ITEM_50
 10
1050.620863278825
 20
204.3415294602023
 30
0.0
 40
0.5
 50
181.0
 51
270.0
  0
ARC
  8
ITEM_50
 10
1084.116359241229
 20
201.8415294602023
 30
0.0
 40
4.0
 50
269.9999999999999
 51
358.9999999999999
  0
ARC
  8
ITEM_50
 10
1055.165186417343
 20
201.8415294602023
 30
0.0
 40
4.0
 50
181.0
 51
270.0
  0
LINE
  8
ITEM_50
 10
1055.165186417343
 20
197.8415294602023
 30
0.0
 11
1084.116359241229
 21
197.8415294602023
 31
0.0
  0
LINE
  8
ITEM_50
 10
1088.151878683261
 20
203.8415294602023
 30
0.0
 11
1088.115750021855
 21
201.7717198344532
 31
0.0
  0
LINE
  8
ITEM_50
 10
1089.640772829295
 20
231.8415294602023
 30
0.0
 11
1089.160606227326
 21
204.3328032569837
 31
0.0
  0
LINE
  8
ITEM_50
 10
1051.129666975311
 20
203.8415294602023
 30
0.0
 11
1051.165795636718
 21
201.7717198344532
 31
0.0
  0
LINE
  8
ITEM_50
 10
1049.640772829277
 20
231.8415294602023
 30
0.0
 11
1050.120939431247
 21
204.3328032569837
 31
0.0
  0
LINE
  8
ITEM_50
 10
1049.640772829286
 20
231.8415294602023
 30
0.0
 11
1089.640772829286
 21
231.8415294602023
 31
0.0
  0
LINE
  8
ITEM_50
 10
1049.640772829286
 20
247.8415294602023
 30
0.0
 11
1049.640772829286
 21
241.8415294602023
 31
0.0
  0
LINE
  8
ITEM_50
 10
1089.640772829286
 20
247.8415294602023
 30
0.0
 11
1049.640772829286
 21
247.8415294602023
 31
0.0
  0
LINE
  8
ITEM_50
 10
1089.640772829286
 20
241.8415294602023
 30
0.0
 11
1089.640772829286
 21
247.8415294602023
 31
0.0
  0
LINE
  8
ITEM_50
 10
1049.640772829286
 20
241.8415294602023
 30
0.0
 11
1089.640772829286
 21
241.8415294602023
 31
0.0
  0
LINE
  8
ITEM_50
 10
1049.640772829286
 20
1099.341529460202
 30
0.0
 11
1049.640772829286
 21
1097.841529460202
 31
0.0
  0
LINE
  8
ITEM_50
 10
1049.640772829286
 20
1097.841529460202
 30
0.0
 11
1089.640772829286
 21
1097.841529460202
 31
0.0
  0
LINE
  8
ITEM_50
 10
1089.640772829286
 20
1097.841529460202
 30
0.0
 11
1089.640772829286
 21
1099.341529460202
 31
0.0
  0
ARC
  8
ITEM_50
 10
1087.140772829286
 20
1099.341529460202
 30
0.0
 40
2.5
 50
0.0
 51
90.0
  0
LINE
  8
ITEM_50
 10
1087.140772829286
 20
1101.841529460202
 30
0.0
 11
1052.140772829286
 21
1101.841529460202
 31
0.0
  0
ARC
  8
ITEM_50
 10
1052.140772829286
 20
1099.341529460202
 30
0.0
 40
2.5
 50
90.0
 51
180.0
  0
LINE
  8
ITEM_50
 10
1658.345142279292
 20
1099.341529460202
 30
0.0
 11
1658.345142279292
 21
1097.841529460202
 31
0.0
  0
LINE
  8
ITEM_50
 10
1658.345142279292
 20
1097.841529460202
 30
0.0
 11
1698.345142279292
 21
1097.841529460202
 31
0.0
  0
LINE
  8
ITEM_50
 10
1698.345142279292
 20
1097.841529460202
 30
0.0
 11
1698.345142279292
 21
1099.341529460202
 31
0.0
  0
ARC
  8
ITEM_50
 10
1695.845142279292
 20
1099.341529460202
 30
0.0
 40
2.5
 50
0.0
 51
90.0
  0
LINE
  8
ITEM_50
 10
1695.845142279292
 20
1101.841529460202
 30
0.0
 11
1660.845142279292
 21
1101.841529460202
 31
0.0
  0
ARC
  8
ITEM_50
 10
1660.845142279292
 20
1099.341529460202
 30
0.0
 40
2.5
 50
90.0
 51
180.0
  0
LINE
  8
ITEM_50
 10
2218.345142279292
 20
1099.341529460202
 30
0.0
 11
2218.345142279292
 21
1097.841529460202
 31
0.0
  0
LINE
  8
ITEM_50
 10
2218.345142279292
 20
1097.841529460202
 30
0.0
 11
2258.345142279292
 21
1097.841529460202
 31
0.0
  0
LINE
  8
ITEM_50
 10
2258.345142279292
 20
1097.841529460202
 30
0.0
 11
2258.345142279292
 21
1099.341529460202
 31
0.0
  0
ARC
  8
ITEM_50
 10
2255.845142279292
 20
1099.341529460202
 30
0.0
 40
2.5
 50
0.0
 51
90.0
  0
LINE
  8
ITEM_50
 10
2255.845142279292
 20
1101.841529460202
 30
0.0
 11
2220.845142279292
 21
1101.841529460202
 31
0.0
  0
ARC
  8
ITEM_50
 10
2220.845142279292
 20
1099.341529460202
 30
0.0
 40
2.5
 50
90.0
 51
180.0
  0
LINE
  8
ITEM_50
 10
1658.345142279292
 20
229.8415294602023
 30
0.0
 11
1698.310232149445
 21
229.8415294602023
 31
0.0
  0
LINE
  8
ITEM_50
 10
1659.325232728831
 20
203.8415294602023
 30
0.0
 11
1697.365051829753
 21
203.8415294602023
 31
0.0
  0
LINE
  8
ITEM_50
 10
1673.676235002174
 20
229.8415294602023
 30
0.0
 11
1673.790329513704
 21
203.8415294602023
 31
0.0
  0
LINE
  8
ITEM_50
 10
1670.69147363199
 20
229.8415294602023
 30
0.0
 11
1670.878507028435
 21
203.8415294602023
 31
0.0
  0
LINE
  8
ITEM_50
 10
1667.895170984973
 20
229.8415294602023
 30
0.0
 11
1668.150537883383
 21
203.8415294602023
 31
0.0
  0
LINE
  8
ITEM_50
 10
1665.356181312688
 20
229.8415294602023
 30
0.0
 11
1665.673593732512
 21
203.8415294602023
 31
0.0
  0
LINE
  8
ITEM_50
 10
1663.137022967292
 20
229.8415294602023
 30
0.0
 11
1663.508665161321
 21
203.8415294602023
 31
0.0
  0
LINE
  8
ITEM_50
 10
1661.29233899221
 20
229.8415294602023
 30
0.0
 11
1661.709059896218
 21
203.8415294602023
 31
0.0
  0
LINE
  8
ITEM_50
 10
1659.867551629066
 20
229.8415294602023
 30
0.0
 11
1660.319090191379
 21
203.8415294602023
 31
0.0
  0
LINE
  8
ITEM_50
 10
1658.897743871338
 20
229.8415294602023
 30
0.0
 11
1659.372981713981
 21
203.8415294602023
 31
0.0
  0
LINE
  8
ITEM_50
 10
1676.775960364735
 20
229.8415294602023
 30
0.0
 11
1676.814306605818
 21
203.8415294602023
 31
0.0
  0
LINE
  8
ITEM_50
 10
1697.792540687246
 20
229.8415294602023
 30
0.0
 11
1697.317302844603
 21
203.8415294602023
 31
0.0
  0
LINE
  8
ITEM_50
 10
1696.822732929518
 20
229.8415294602023
 30
0.0
 11
1696.371194367205
 21
203.8415294602023
 31
0.0
  0
LINE
  8
ITEM_50
 10
1695.397945566374
 20
229.8415294602023
 30
0.0
 11
1694.981224662366
 21
203.8415294602023
 31
0.0
  0
LINE
  8
ITEM_50
 10
1693.553261591293
 20
229.8415294602023
 30
0.0
 11
1693.181619397264
 21
203.8415294602023
 31
0.0
  0
LINE
  8
ITEM_50
 10
1691.334103245896
 20
229.8415294602023
 30
0.0
 11
1691.016690826072
 21
203.8415294602023
 31
0.0
  0
LINE
  8
ITEM_50
 10
1688.795113573611
 20
229.8415294602023
 30
0.0
 11
1688.539746675201
 21
203.8415294602023
 31
0.0
  0
LINE
  8
ITEM_50
 10
1685.998810926594
 20
229.8415294602023
 30
0.0
 11
1685.811777530149
 21
203.8415294602023
 31
0.0
  0
LINE
  8
ITEM_50
 10
1683.01404955641
 20
229.8415294602023
 30
0.0
 11
1682.89995504488
 21
203.8415294602023
 31
0.0
  0
LINE
  8
ITEM_50
 10
1679.914324193849
 20
229.8415294602023
 30
0.0
 11
1679.875977952766
 21
203.8415294602023
 31
0.0
  0
ARC
  8
ITEM_50
 10
1697.365051829753
 20
204.3415294602023
 30
0.0
 40
0.5
 50
270.0
 51
358.9999999999999
  0
ARC
  8
ITEM_50
 10
1659.325232728831
 20
204.3415294602023
 30
0.0
 40
0.5
 50
181.0
 51
270.0
  0
ARC
  8
ITEM_50
 10
1692.820728691235
 20
201.8415294602023
 30
0.0
 40
4.0
 50
269.9999999999999
 51
358.9999999999999
  0
ARC
  8
ITEM_50
 10
1663.869555867349
 20
201.8415294602023
 30
0.0
 40
4.0
 50
181.0
 51
270.0
  0
LINE
  8
ITEM_50
 10
1663.869555867349
 20
197.8415294602023
 30
0.0
 11
1692.820728691235
 21
197.8415294602023
 31
0.0
  0
LINE
  8
ITEM_50
 10
1696.856248133267
 20
203.8415294602023
 30
0.0
 11
1696.820119471861
 21
201.7717198344532
 31
0.0
  0
LINE
  8
ITEM_50
 10
1698.345142279301
 20
231.8415294602023
 30
0.0
 11
1697.864975677331
 21
204.3328032569836
 31
0.0
  0
LINE
  8
ITEM_50
 10
1659.834036425317
 20
203.8415294602023
 30
0.0
 11
1659.870165086724
 21
201.7717198344532
 31
0.0
  0
LINE
  8
ITEM_50
 10
1658.345142279283
 20
231.8415294602023
 30
0.0
 11
1658.825308881253
 21
204.3328032569836
 31
0.0
  0
LINE
  8
ITEM_50
 10
1658.345142279292
 20
231.8415294602023
 30
0.0
 11
1698.345142279292
 21
231.8415294602023
 31
0.0
  0
LINE
  8
ITEM_50
 10
1658.345142279292
 20
247.8415294602023
 30
0.0
 11
1658.345142279292
 21
241.8415294602023
 31
0.0
  0
LINE
  8
ITEM_50
 10
1698.345142279292
 20
247.8415294602023
 30
0.0
 11
1658.345142279292
 21
247.8415294602023
 31
0.0
  0
LINE
  8
ITEM_50
 10
1698.345142279292
 20
241.8415294602023
 30
0.0
 11
1698.345142279292
 21
247.8415294602023
 31
0.0
  0
LINE
  8
ITEM_50
 10
1658.345142279292
 20
241.8415294602023
 30
0.0
 11
1698.345142279292
 21
241.8415294602023
 31
0.0
  0
LINE
  8
ITEM_50
 10
2218.345142279292
 20
247.8415294602023
 30
0.0
 11
2218.345142279292
 21
241.8415294602023
 31
0.0
  0
LINE
  8
ITEM_50
 10
2258.345142279292
 20
247.8415294602023
 30
0.0
 11
2218.345142279292
 21
247.8415294602023
 31
0.0
  0
LINE
  8
ITEM_50
 10
2258.345142279292
 20
241.8415294602023
 30
0.0
 11
2258.345142279292
 21
247.8415294602023
 31
0.0
  0
LINE
  8
ITEM_50
 10
2218.345142279292
 20
241.8415294602023
 30
0.0
 11
2258.345142279292
 21
241.8415294602023
 31
0.0
  0
LINE
  8
ITEM_50
 10
2218.345142279292
 20
229.8415294602023
 30
0.0
 11
2258.310232149445
 21
229.8415294602023
 31
0.0
  0
LINE
  8
ITEM_50
 10
2219.325232728831
 20
203.8415294602023
 30
0.0
 11
2257.365051829753
 21
203.8415294602023
 31
0.0
  0
LINE
  8
ITEM_50
 10
2233.676235002174
 20
229.8415294602023
 30
0.0
 11
2233.790329513703
 21
203.8415294602023
 31
0.0
  0
LINE
  8
ITEM_50
 10
2230.69147363199
 20
229.8415294602023
 30
0.0
 11
2230.878507028435
 21
203.8415294602023
 31
0.0
  0
LINE
  8
ITEM_50
 10
2227.895170984973
 20
229.8415294602023
 30
0.0
 11
2228.150537883383
 21
203.8415294602023
 31
0.0
  0
LINE
  8
ITEM_50
 10
2225.356181312688
 20
229.8415294602023
 30
0.0
 11
2225.673593732512
 21
203.8415294602023
 31
0.0
  0
LINE
  8
ITEM_50
 10
2223.137022967292
 20
229.8415294602023
 30
0.0
 11
2223.508665161321
 21
203.8415294602023
 31
0.0
  0
LINE
  8
ITEM_50
 10
2221.29233899221
 20
229.8415294602023
 30
0.0
 11
2221.709059896218
 21
203.8415294602023
 31
0.0
  0
LINE
  8
ITEM_50
 10
2219.867551629066
 20
229.8415294602023
 30
0.0
 11
2220.319090191379
 21
203.8415294602023
 31
0.0
  0
LINE
  8
ITEM_50
 10
2218.897743871339
 20
229.8415294602023
 30
0.0
 11
2219.372981713981
 21
203.8415294602023
 31
0.0
  0
LINE
  8
ITEM_50
 10
2236.775960364735
 20
229.8415294602023
 30
0.0
 11
2236.814306605818
 21
203.8415294602023
 31
0.0
  0
LINE
  8
ITEM_50
 10
2257.792540687246
 20
229.8415294602023
 30
0.0
 11
2257.317302844603
 21
203.8415294602023
 31
0.0
  0
LINE
  8
ITEM_50
 10
2256.822732929518
 20
229.8415294602023
 30
0.0
 11
2256.371194367206
 21
203.8415294602023
 31
0.0
  0
LINE
  8
ITEM_50
 10
2255.397945566374
 20
229.8415294602023
 30
0.0
 11
2254.981224662366
 21
203.8415294602023
 31
0.0
  0
LINE
  8
ITEM_50
 10
2253.553261591293
 20
229.8415294602023
 30
0.0
 11
2253.181619397264
 21
203.8415294602023
 31
0.0
  0
LINE
  8
ITEM_50
 10
2251.334103245896
 20
229.8415294602023
 30
0.0
 11
2251.016690826072
 21
203.8415294602023
 31
0.0
  0
LINE
  8
ITEM_50
 10
2248.795113573611
 20
229.8415294602023
 30
0.0
 11
2248.539746675201
 21
203.8415294602023
 31
0.0
  0
LINE
  8
ITEM_50
 10
2245.998810926594
 20
229.8415294602023
 30
0.0
 11
2245.811777530149
 21
203.8415294602023
 31
0.0
  0
LINE
  8
ITEM_50
 10
2243.01404955641
 20
229.8415294602023
 30
0.0
 11
2242.89995504488
 21
203.8415294602023
 31
0.0
  0
LINE
  8
ITEM_50
 10
2239.914324193849
 20
229.8415294602023
 30
0.0
 11
2239.875977952766
 21
203.8415294602023
 31
0.0
  0
ARC
  8
ITEM_50
 10
2257.365051829753
 20
204.3415294602023
 30
0.0
 40
0.5
 50
270.0
 51
358.9999999999999
  0
ARC
  8
ITEM_50
 10
2219.325232728831
 20
204.3415294602023
 30
0.0
 40
0.5
 50
181.0
 51
270.0
  0
ARC
  8
ITEM_50
 10
2252.820728691235
 20
201.8415294602023
 30
0.0
 40
4.0
 50
269.9999999999999
 51
358.9999999999999
  0
ARC
  8
ITEM_50
 10
2223.869555867349
 20
201.8415294602023
 30
0.0
 40
4.0
 50
181.0
 51
270.0
  0
LINE
  8
ITEM_50
 10
2223.869555867349
 20
197.8415294602023
 30
0.0
 11
2252.820728691235
 21
197.8415294602023
 31
0.0
  0
LINE
  8
ITEM_50
 10
2256.856248133267
 20
203.8415294602023
 30
0.0
 11
2256.820119471861
 21
201.7717198344532
 31
0.0
  0
LINE
  8
ITEM_50
 10
2258.345142279301
 20
231.8415294602023
 30
0.0
 11
2257.864975677332
 21
204.3328032569836
 31
0.0
  0
LINE
  8
ITEM_50
 10
2219.834036425317
 20
203.8415294602023
 30
0.0
 11
2219.870165086724
 21
201.7717198344532
 31
0.0
  0
LINE
  8
ITEM_50
 10
2218.345142279283
 20
231.8415294602023
 30
0.0
 11
2218.825308881253
 21
204.3328032569836
 31
0.0
  0
LINE
  8
ITEM_50
 10
2218.345142279292
 20
231.8415294602023
 30
0.0
 11
2258.345142279292
 21
231.8415294602023
 31
0.0
  0
LINE
  8
ITEM_25
 10
1052.140772829287
 20
-663.8844039971886
 30
0.0
 11
1052.140772829287
 21
-633.8844039971886
 31
0.0
  0
LINE
  8
ITEM_25
 10
1084.640772829287
 20
-666.3844039971886
 30
0.0
 11
1054.640772829287
 21
-666.3844039971886
 31
0.0
  0
LINE
  8
ITEM_50
 10
1089.640772829287
 20
-632.8844039971886
 30
0.0
 11
1089.640772829287
 21
-664.8844039971886
 31
0.0
  0
LINE
  8
ITEM_50
 10
1053.640772829287
 20
-628.8844039971886
 30
0.0
 11
1085.640772829287
 21
-628.884403997205
 31
0.0
  0
LINE
  8
ITEM_25
 10
1054.640772829287
 20
-631.3844039971886
 30
0.0
 11
1084.640772829287
 21
-631.3844039971886
 31
0.0
  0
LINE
  8
ITEM_25
 10
1087.140772829287
 20
-633.8844039971886
 30
0.0
 11
1087.140772829287
 21
-663.8844039971886
 31
0.0
  0
ARC
  8
ITEM_50
 10
1085.640772829287
 20
-632.8844039971886
 30
0.0
 40
4.0
 50
0.0
 51
90.0
  0
ARC
  8
ITEM_50
 10
1085.640772829287
 20
-664.8844039971886
 30
0.0
 40
4.0
 50
269.9999999999996
 51
0.0
  0
LINE
  8
ITEM_50
 10
1085.640772829287
 20
-668.8844039971886
 30
0.0
 11
1053.640772829287
 21
-668.8844039971884
 31
0.0
  0
ARC
  8
ITEM_50
 10
1053.640772829287
 20
-664.8844039971884
 30
0.0
 40
4.0
 50
180.0000000000036
 51
270.0
  0
LINE
  8
ITEM_50
 10
1049.640772829287
 20
-664.8844039971886
 30
0.0
 11
1049.640772829285
 21
-632.8844039971886
 31
0.0
  0
ARC
  8
ITEM_50
 10
1053.640772829285
 20
-632.8844039971886
 30
0.0
 40
4.0
 50
89.99999999997068
 51
179.9999999999999
  0
LINE
  8
ITEM_50
 10
1049.640772829286
 20
-628.8844039971968
 30
0.0
 11
1089.640772829287
 21
-628.8844039971968
 31
0.0
  0
LINE
  8
ITEM_50
 10
1049.640772829286
 20
-668.8844039971968
 30
0.0
 11
1049.640772829286
 21
-628.8844039971968
 31
0.0
  0
LINE
  8
ITEM_50
 10
89.64077282928678
 20
1099.341529460202
 30
0.0
 11
89.64077282928678
 21
1097.841529460202
 31
0.0
  0
LINE
  8
ITEM_50
 10
89.64077282928678
 20
1097.841529460202
 30
0.0
 11
129.6407728292867
 21
1097.841529460202
 31
0.0
  0
LINE
  8
ITEM_50
 10
129.6407728292867
 20
1097.841529460202
 30
0.0
 11
129.6407728292867
 21
1099.341529460202
 31
0.0
  0
ARC
  8
ITEM_50
 10
127.1407728292867
 20
1099.341529460202
 30
0.0
 40
2.5
 50
0.0
 51
90.0
  0
LINE
  8
ITEM_50
 10
127.1407728292867
 20
1101.841529460202
 30
0.0
 11
92.14077282928678
 21
1101.841529460202
 31
0.0
  0
ARC
  8
ITEM_50
 10
92.14077282928678
 20
1099.341529460202
 30
0.0
 40
2.5
 50
90.0
 51
180.0
  0
ENDSEC
  0
EOF
